ISO-10303-21;
HEADER;
/* Generated by software containing ST-Developer
 * from STEP Tools, Inc. (www.steptools.com) 
 */

FILE_DESCRIPTION(
/* description */ (''),
/* implementation_level */ '2;1');

FILE_NAME(
/* name */ '',
/* time_stamp */ '2025-07-24T11:12:10+07:00',
/* author */ ('zeta-86'),
/* organization */ (''),
/* preprocessor_version */ 'ST-DEVELOPER v19.2',
/* originating_system */ 'Autodesk Inventor 2024',
/* authorisation */ '');

FILE_SCHEMA (('AUTOMOTIVE_DESIGN { 1 0 10303 214 3 1 1 }'));
ENDSEC;

DATA;
#10=MECHANICAL_DESIGN_GEOMETRIC_PRESENTATION_REPRESENTATION('',(#13),#412);
#11=SHAPE_REPRESENTATION_RELATIONSHIP('SRR','None',#419,#12);
#12=ADVANCED_BREP_SHAPE_REPRESENTATION('',(#14),#411);
#13=STYLED_ITEM('',(#428),#14);
#14=MANIFOLD_SOLID_BREP('\X2\04220432043504400434043E0435\X0\ \X2\04420435043B043E\X0\1',
#209);
#15=SPHERICAL_SURFACE('',#264,101.);
#16=CONICAL_SURFACE('',#251,16.25,0.785398163397446);
#17=CONICAL_SURFACE('',#255,18.,0.785398163397448);
#18=CONICAL_SURFACE('',#261,18.,0.785398163397447);
#19=B_SPLINE_CURVE_WITH_KNOTS('',3,(#371,#372,#373,#374,#375,#376),
 .UNSPECIFIED.,.F.,.F.,(4,2,4),(0.95549097926249,1.05386052449311,1.15223006972372),
 .UNSPECIFIED.);
#20=B_SPLINE_CURVE_WITH_KNOTS('',3,(#377,#378,#379,#380,#381,#382),
 .UNSPECIFIED.,.F.,.F.,(4,2,4),(0.955490979262489,1.0538605244931,1.15223006972372),
 .UNSPECIFIED.);
#21=LINE('',#356,#27);
#22=LINE('',#386,#28);
#23=LINE('',#395,#29);
#24=LINE('',#401,#30);
#25=LINE('',#403,#31);
#26=LINE('',#407,#32);
#27=VECTOR('',#287,17.5);
#28=VECTOR('',#310,16.25);
#29=VECTOR('',#321,18.);
#30=VECTOR('',#328,18.5);
#31=VECTOR('',#331,18.);
#32=VECTOR('',#336,20.);
#33=CYLINDRICAL_SURFACE('',#241,17.5);
#34=CYLINDRICAL_SURFACE('',#250,38.672286591523);
#35=CYLINDRICAL_SURFACE('',#258,18.5);
#36=CYLINDRICAL_SURFACE('',#262,20.);
#37=TOROIDAL_SURFACE('',#237,18.5,1.);
#38=FACE_BOUND('',#57,.T.);
#39=FACE_BOUND('',#65,.T.);
#40=FACE_BOUND('',#71,.T.);
#41=FACE_OUTER_BOUND('',#55,.T.);
#42=FACE_OUTER_BOUND('',#56,.T.);
#43=FACE_OUTER_BOUND('',#58,.T.);
#44=FACE_OUTER_BOUND('',#59,.T.);
#45=FACE_OUTER_BOUND('',#60,.T.);
#46=FACE_OUTER_BOUND('',#61,.T.);
#47=FACE_OUTER_BOUND('',#62,.T.);
#48=FACE_OUTER_BOUND('',#63,.T.);
#49=FACE_OUTER_BOUND('',#64,.T.);
#50=FACE_OUTER_BOUND('',#66,.T.);
#51=FACE_OUTER_BOUND('',#67,.T.);
#52=FACE_OUTER_BOUND('',#68,.T.);
#53=FACE_OUTER_BOUND('',#69,.T.);
#54=FACE_OUTER_BOUND('',#70,.T.);
#55=EDGE_LOOP('',(#136));
#56=EDGE_LOOP('',(#137));
#57=EDGE_LOOP('',(#138));
#58=EDGE_LOOP('',(#139,#140,#141,#142,#143));
#59=EDGE_LOOP('',(#144,#145,#146,#147,#148,#149));
#60=EDGE_LOOP('',(#150,#151));
#61=EDGE_LOOP('',(#152,#153));
#62=EDGE_LOOP('',(#154,#155,#156,#157));
#63=EDGE_LOOP('',(#158,#159,#160,#161));
#64=EDGE_LOOP('',(#162));
#65=EDGE_LOOP('',(#163));
#66=EDGE_LOOP('',(#164,#165,#166,#167,#168));
#67=EDGE_LOOP('',(#169,#170,#171,#172,#173,#174));
#68=EDGE_LOOP('',(#175,#176,#177,#178,#179,#180));
#69=EDGE_LOOP('',(#181,#182,#183,#184));
#70=EDGE_LOOP('',(#185));
#71=EDGE_LOOP('',(#186,#187,#188,#189));
#72=CIRCLE('',#233,16.);
#73=CIRCLE('',#235,20.);
#74=CIRCLE('',#236,19.3660254037844);
#75=CIRCLE('',#238,17.5);
#76=CIRCLE('',#239,1.);
#77=CIRCLE('',#240,17.5);
#78=CIRCLE('',#242,17.5);
#79=CIRCLE('',#243,17.5);
#80=CIRCLE('',#245,100.995049383621);
#81=CIRCLE('',#246,38.672286591523);
#82=CIRCLE('',#248,100.995049383621);
#83=CIRCLE('',#249,38.672286591523);
#84=CIRCLE('',#252,16.5);
#85=CIRCLE('',#254,17.5);
#86=CIRCLE('',#256,18.5);
#87=CIRCLE('',#257,18.5);
#88=CIRCLE('',#259,18.5);
#89=CIRCLE('',#260,18.5);
#90=CIRCLE('',#263,20.);
#91=VERTEX_POINT('',#341);
#92=VERTEX_POINT('',#344);
#93=VERTEX_POINT('',#346);
#94=VERTEX_POINT('',#349);
#95=VERTEX_POINT('',#350);
#96=VERTEX_POINT('',#355);
#97=VERTEX_POINT('',#357);
#98=VERTEX_POINT('',#361);
#99=VERTEX_POINT('',#362);
#100=VERTEX_POINT('',#366);
#101=VERTEX_POINT('',#367);
#102=VERTEX_POINT('',#384);
#103=VERTEX_POINT('',#388);
#104=VERTEX_POINT('',#391);
#105=VERTEX_POINT('',#392);
#106=VERTEX_POINT('',#397);
#107=VERTEX_POINT('',#398);
#108=VERTEX_POINT('',#405);
#109=EDGE_CURVE('',#91,#91,#72,.T.);
#110=EDGE_CURVE('',#92,#92,#73,.T.);
#111=EDGE_CURVE('',#93,#93,#74,.T.);
#112=EDGE_CURVE('',#94,#95,#75,.T.);
#113=EDGE_CURVE('',#95,#93,#76,.T.);
#114=EDGE_CURVE('',#95,#94,#77,.T.);
#115=EDGE_CURVE('',#94,#96,#21,.T.);
#116=EDGE_CURVE('',#96,#97,#78,.T.);
#117=EDGE_CURVE('',#97,#96,#79,.T.);
#118=EDGE_CURVE('',#98,#99,#80,.T.);
#119=EDGE_CURVE('',#99,#98,#81,.T.);
#120=EDGE_CURVE('',#100,#101,#82,.T.);
#121=EDGE_CURVE('',#101,#100,#83,.T.);
#122=EDGE_CURVE('',#101,#98,#19,.T.);
#123=EDGE_CURVE('',#99,#100,#20,.T.);
#124=EDGE_CURVE('',#102,#102,#84,.T.);
#125=EDGE_CURVE('',#102,#91,#22,.T.);
#126=EDGE_CURVE('',#103,#103,#85,.T.);
#127=EDGE_CURVE('',#104,#105,#86,.T.);
#128=EDGE_CURVE('',#105,#104,#87,.T.);
#129=EDGE_CURVE('',#104,#103,#23,.T.);
#130=EDGE_CURVE('',#106,#107,#88,.T.);
#131=EDGE_CURVE('',#107,#106,#89,.T.);
#132=EDGE_CURVE('',#107,#105,#24,.T.);
#133=EDGE_CURVE('',#97,#106,#25,.T.);
#134=EDGE_CURVE('',#108,#108,#90,.T.);
#135=EDGE_CURVE('',#108,#92,#26,.T.);
#136=ORIENTED_EDGE('',*,*,#109,.F.);
#137=ORIENTED_EDGE('',*,*,#110,.F.);
#138=ORIENTED_EDGE('',*,*,#111,.T.);
#139=ORIENTED_EDGE('',*,*,#112,.T.);
#140=ORIENTED_EDGE('',*,*,#113,.T.);
#141=ORIENTED_EDGE('',*,*,#111,.F.);
#142=ORIENTED_EDGE('',*,*,#113,.F.);
#143=ORIENTED_EDGE('',*,*,#114,.T.);
#144=ORIENTED_EDGE('',*,*,#112,.F.);
#145=ORIENTED_EDGE('',*,*,#115,.T.);
#146=ORIENTED_EDGE('',*,*,#116,.T.);
#147=ORIENTED_EDGE('',*,*,#117,.T.);
#148=ORIENTED_EDGE('',*,*,#115,.F.);
#149=ORIENTED_EDGE('',*,*,#114,.F.);
#150=ORIENTED_EDGE('',*,*,#118,.F.);
#151=ORIENTED_EDGE('',*,*,#119,.F.);
#152=ORIENTED_EDGE('',*,*,#120,.F.);
#153=ORIENTED_EDGE('',*,*,#121,.F.);
#154=ORIENTED_EDGE('',*,*,#122,.F.);
#155=ORIENTED_EDGE('',*,*,#121,.T.);
#156=ORIENTED_EDGE('',*,*,#123,.F.);
#157=ORIENTED_EDGE('',*,*,#119,.T.);
#158=ORIENTED_EDGE('',*,*,#124,.T.);
#159=ORIENTED_EDGE('',*,*,#125,.T.);
#160=ORIENTED_EDGE('',*,*,#109,.T.);
#161=ORIENTED_EDGE('',*,*,#125,.F.);
#162=ORIENTED_EDGE('',*,*,#126,.F.);
#163=ORIENTED_EDGE('',*,*,#124,.F.);
#164=ORIENTED_EDGE('',*,*,#127,.T.);
#165=ORIENTED_EDGE('',*,*,#128,.T.);
#166=ORIENTED_EDGE('',*,*,#129,.T.);
#167=ORIENTED_EDGE('',*,*,#126,.T.);
#168=ORIENTED_EDGE('',*,*,#129,.F.);
#169=ORIENTED_EDGE('',*,*,#130,.F.);
#170=ORIENTED_EDGE('',*,*,#131,.F.);
#171=ORIENTED_EDGE('',*,*,#132,.T.);
#172=ORIENTED_EDGE('',*,*,#127,.F.);
#173=ORIENTED_EDGE('',*,*,#128,.F.);
#174=ORIENTED_EDGE('',*,*,#132,.F.);
#175=ORIENTED_EDGE('',*,*,#117,.F.);
#176=ORIENTED_EDGE('',*,*,#133,.T.);
#177=ORIENTED_EDGE('',*,*,#130,.T.);
#178=ORIENTED_EDGE('',*,*,#131,.T.);
#179=ORIENTED_EDGE('',*,*,#133,.F.);
#180=ORIENTED_EDGE('',*,*,#116,.F.);
#181=ORIENTED_EDGE('',*,*,#134,.F.);
#182=ORIENTED_EDGE('',*,*,#135,.T.);
#183=ORIENTED_EDGE('',*,*,#110,.T.);
#184=ORIENTED_EDGE('',*,*,#135,.F.);
#185=ORIENTED_EDGE('',*,*,#134,.T.);
#186=ORIENTED_EDGE('',*,*,#120,.T.);
#187=ORIENTED_EDGE('',*,*,#122,.T.);
#188=ORIENTED_EDGE('',*,*,#118,.T.);
#189=ORIENTED_EDGE('',*,*,#123,.T.);
#190=PLANE('',#232);
#191=PLANE('',#234);
#192=PLANE('',#244);
#193=PLANE('',#247);
#194=PLANE('',#253);
#195=ADVANCED_FACE('',(#41),#190,.F.);
#196=ADVANCED_FACE('',(#42,#38),#191,.F.);
#197=ADVANCED_FACE('',(#43),#37,.T.);
#198=ADVANCED_FACE('',(#44),#33,.T.);
#199=ADVANCED_FACE('',(#45),#192,.F.);
#200=ADVANCED_FACE('',(#46),#193,.T.);
#201=ADVANCED_FACE('',(#47),#34,.F.);
#202=ADVANCED_FACE('',(#48),#16,.F.);
#203=ADVANCED_FACE('',(#49,#39),#194,.T.);
#204=ADVANCED_FACE('',(#50),#17,.T.);
#205=ADVANCED_FACE('',(#51),#35,.T.);
#206=ADVANCED_FACE('',(#52),#18,.T.);
#207=ADVANCED_FACE('',(#53),#36,.T.);
#208=ADVANCED_FACE('',(#54,#40),#15,.T.);
#209=CLOSED_SHELL('',(#195,#196,#197,#198,#199,#200,#201,#202,#203,#204,
#205,#206,#207,#208));
#210=DERIVED_UNIT_ELEMENT(#213,1.);
#211=DERIVED_UNIT_ELEMENT(#414,-3.);
#212=DIMENSIONAL_EXPONENTS(0.,1.,0.,0.,0.,0.,0.);
#213=(
CONVERSION_BASED_UNIT('gram',#215)
MASS_UNIT()
NAMED_UNIT(#212)
);
#214=(
MASS_UNIT()
NAMED_UNIT(*)
SI_UNIT(.KILO.,.GRAM.)
);
#215=MASS_MEASURE_WITH_UNIT(MASS_MEASURE(0.001),#214);
#216=DERIVED_UNIT((#210,#211));
#217=MEASURE_REPRESENTATION_ITEM('density measure',
POSITIVE_RATIO_MEASURE(1.),#216);
#218=PROPERTY_DEFINITION_REPRESENTATION(#223,#220);
#219=PROPERTY_DEFINITION_REPRESENTATION(#224,#221);
#220=REPRESENTATION('material name',(#222),#411);
#221=REPRESENTATION('density',(#217),#411);
#222=DESCRIPTIVE_REPRESENTATION_ITEM('\X2\04220438043F043E0432044B0435\X0\',
'\X2\04220438043F043E0432044B0435\X0\');
#223=PROPERTY_DEFINITION('material property','material name',#421);
#224=PROPERTY_DEFINITION('material property','density of part',#421);
#225=DATE_TIME_ROLE('creation_date');
#226=APPLIED_DATE_AND_TIME_ASSIGNMENT(#227,#225,(#421));
#227=DATE_AND_TIME(#228,#229);
#228=CALENDAR_DATE(2025,24,7);
#229=LOCAL_TIME(0,0,0.,#230);
#230=COORDINATED_UNIVERSAL_TIME_OFFSET(0,0,.BEHIND.);
#231=AXIS2_PLACEMENT_3D('',#339,#265,#266);
#232=AXIS2_PLACEMENT_3D('',#340,#267,#268);
#233=AXIS2_PLACEMENT_3D('',#342,#269,#270);
#234=AXIS2_PLACEMENT_3D('',#343,#271,#272);
#235=AXIS2_PLACEMENT_3D('',#345,#273,#274);
#236=AXIS2_PLACEMENT_3D('',#347,#275,#276);
#237=AXIS2_PLACEMENT_3D('',#348,#277,#278);
#238=AXIS2_PLACEMENT_3D('',#351,#279,#280);
#239=AXIS2_PLACEMENT_3D('',#352,#281,#282);
#240=AXIS2_PLACEMENT_3D('',#353,#283,#284);
#241=AXIS2_PLACEMENT_3D('',#354,#285,#286);
#242=AXIS2_PLACEMENT_3D('',#358,#288,#289);
#243=AXIS2_PLACEMENT_3D('',#359,#290,#291);
#244=AXIS2_PLACEMENT_3D('',#360,#292,#293);
#245=AXIS2_PLACEMENT_3D('',#363,#294,#295);
#246=AXIS2_PLACEMENT_3D('',#364,#296,#297);
#247=AXIS2_PLACEMENT_3D('',#365,#298,#299);
#248=AXIS2_PLACEMENT_3D('',#368,#300,#301);
#249=AXIS2_PLACEMENT_3D('',#369,#302,#303);
#250=AXIS2_PLACEMENT_3D('',#370,#304,#305);
#251=AXIS2_PLACEMENT_3D('',#383,#306,#307);
#252=AXIS2_PLACEMENT_3D('',#385,#308,#309);
#253=AXIS2_PLACEMENT_3D('',#387,#311,#312);
#254=AXIS2_PLACEMENT_3D('',#389,#313,#314);
#255=AXIS2_PLACEMENT_3D('',#390,#315,#316);
#256=AXIS2_PLACEMENT_3D('',#393,#317,#318);
#257=AXIS2_PLACEMENT_3D('',#394,#319,#320);
#258=AXIS2_PLACEMENT_3D('',#396,#322,#323);
#259=AXIS2_PLACEMENT_3D('',#399,#324,#325);
#260=AXIS2_PLACEMENT_3D('',#400,#326,#327);
#261=AXIS2_PLACEMENT_3D('',#402,#329,#330);
#262=AXIS2_PLACEMENT_3D('',#404,#332,#333);
#263=AXIS2_PLACEMENT_3D('',#406,#334,#335);
#264=AXIS2_PLACEMENT_3D('',#408,#337,#338);
#265=DIRECTION('axis',(0.,0.,1.));
#266=DIRECTION('refdir',(1.,0.,0.));
#267=DIRECTION('center_axis',(0.,1.,0.));
#268=DIRECTION('ref_axis',(0.,0.,1.));
#269=DIRECTION('center_axis',(0.,1.,0.));
#270=DIRECTION('ref_axis',(1.,0.,0.));
#271=DIRECTION('center_axis',(0.,1.,0.));
#272=DIRECTION('ref_axis',(0.,0.,1.));
#273=DIRECTION('center_axis',(0.,1.,0.));
#274=DIRECTION('ref_axis',(1.,0.,0.));
#275=DIRECTION('center_axis',(-1.65492810406777E-16,1.,3.06161699786838E-17));
#276=DIRECTION('ref_axis',(0.,3.06161699786838E-17,-1.));
#277=DIRECTION('center_axis',(3.30985620813554E-16,-1.,-6.12323399573677E-17));
#278=DIRECTION('ref_axis',(-6.67272505056761E-15,5.69345140833414E-17,-1.));
#279=DIRECTION('center_axis',(0.,1.,0.));
#280=DIRECTION('ref_axis',(-1.,0.,0.));
#281=DIRECTION('center_axis',(-1.,-3.30985620813554E-16,6.54746911958426E-15));
#282=DIRECTION('ref_axis',(6.54746911958426E-15,-5.69345140833414E-17,1.));
#283=DIRECTION('center_axis',(0.,1.,0.));
#284=DIRECTION('ref_axis',(-1.,0.,0.));
#285=DIRECTION('center_axis',(0.,1.,0.));
#286=DIRECTION('ref_axis',(-1.,0.,0.));
#287=DIRECTION('',(0.,-1.,0.));
#288=DIRECTION('center_axis',(0.,1.,0.));
#289=DIRECTION('ref_axis',(1.,0.,0.));
#290=DIRECTION('center_axis',(0.,1.,0.));
#291=DIRECTION('ref_axis',(1.,0.,0.));
#292=DIRECTION('center_axis',(1.,0.,0.));
#293=DIRECTION('ref_axis',(0.,0.,-1.));
#294=DIRECTION('center_axis',(1.,0.,0.));
#295=DIRECTION('ref_axis',(0.,0.,1.));
#296=DIRECTION('center_axis',(1.,0.,0.));
#297=DIRECTION('ref_axis',(0.,1.,0.));
#298=DIRECTION('center_axis',(1.,0.,0.));
#299=DIRECTION('ref_axis',(0.,0.,-1.));
#300=DIRECTION('center_axis',(-1.,0.,0.));
#301=DIRECTION('ref_axis',(0.,0.,-1.));
#302=DIRECTION('center_axis',(-1.,0.,0.));
#303=DIRECTION('ref_axis',(0.,1.,0.));
#304=DIRECTION('center_axis',(1.,0.,0.));
#305=DIRECTION('ref_axis',(0.,-1.,-1.22464679914735E-16));
#306=DIRECTION('center_axis',(0.,-1.,0.));
#307=DIRECTION('ref_axis',(1.,0.,0.));
#308=DIRECTION('center_axis',(0.,-1.,0.));
#309=DIRECTION('ref_axis',(1.,0.,0.));
#310=DIRECTION('',(0.707106781186546,0.707106781186549,8.65956056235491E-17));
#311=DIRECTION('center_axis',(0.,-1.,0.));
#312=DIRECTION('ref_axis',(0.,0.,-1.));
#313=DIRECTION('center_axis',(0.,1.,0.));
#314=DIRECTION('ref_axis',(1.,0.,0.));
#315=DIRECTION('center_axis',(0.,1.,0.));
#316=DIRECTION('ref_axis',(1.,0.,0.));
#317=DIRECTION('center_axis',(0.,-1.,0.));
#318=DIRECTION('ref_axis',(1.,0.,0.));
#319=DIRECTION('center_axis',(0.,-1.,0.));
#320=DIRECTION('ref_axis',(1.,0.,0.));
#321=DIRECTION('',(0.707106781186547,-0.707106781186548,-8.65956056235493E-17));
#322=DIRECTION('center_axis',(0.,1.,0.));
#323=DIRECTION('ref_axis',(-1.,0.,0.));
#324=DIRECTION('center_axis',(0.,1.,0.));
#325=DIRECTION('ref_axis',(1.,0.,0.));
#326=DIRECTION('center_axis',(0.,1.,0.));
#327=DIRECTION('ref_axis',(1.,0.,0.));
#328=DIRECTION('',(0.,-1.,0.));
#329=DIRECTION('center_axis',(0.,-1.,0.));
#330=DIRECTION('ref_axis',(1.,0.,0.));
#331=DIRECTION('',(-0.707106781186547,-0.707106781186548,8.65956056235492E-17));
#332=DIRECTION('center_axis',(0.,1.,0.));
#333=DIRECTION('ref_axis',(-1.,0.,0.));
#334=DIRECTION('center_axis',(0.,1.,0.));
#335=DIRECTION('ref_axis',(1.,0.,0.));
#336=DIRECTION('',(0.,-1.,0.));
#337=DIRECTION('center_axis',(6.15569201772364E-17,0.,1.));
#338=DIRECTION('ref_axis',(1.,0.,0.));
#339=CARTESIAN_POINT('',(0.,0.,0.));
#340=CARTESIAN_POINT('Origin',(-3.7641313711965,-8.29933718765776,0.));
#341=CARTESIAN_POINT('',(-19.7641313711965,-8.29933718765776,1.95943487863577E-15));
#342=CARTESIAN_POINT('Origin',(-3.7641313711965,-8.29933718765776,0.));
#343=CARTESIAN_POINT('Origin',(-3.7641313711965,-0.799337187657757,0.));
#344=CARTESIAN_POINT('',(16.2358686288035,-0.799337187657757,-2.44929359829471E-15));
#345=CARTESIAN_POINT('Origin',(-3.7641313711965,-0.799337187657757,0.));
#346=CARTESIAN_POINT('',(-3.7641313711965,-0.799337187657758,19.3660254037844));
#347=CARTESIAN_POINT('Origin',(-3.7641313711965,-0.799337187657757,1.53080849893419E-17));
#348=CARTESIAN_POINT('Origin',(-3.7641313711965,-1.29933718765776,-1.40399392805943E-32));
#349=CARTESIAN_POINT('',(13.7358686288035,-1.29933718765776,-2.14313189850787E-15));
#350=CARTESIAN_POINT('',(-3.76413137119639,-1.29933718765776,17.5));
#351=CARTESIAN_POINT('Origin',(-3.7641313711965,-1.29933718765776,-1.40399392805943E-32));
#352=CARTESIAN_POINT('Origin',(-3.76413137119638,-1.29933718765776,18.5));
#353=CARTESIAN_POINT('Origin',(-3.7641313711965,-1.29933718765776,-1.40399392805943E-32));
#354=CARTESIAN_POINT('Origin',(-3.7641313711965,-1.29933718765776,0.));
#355=CARTESIAN_POINT('',(13.7358686288035,-2.29933718765776,-2.14313189850787E-15));
#356=CARTESIAN_POINT('',(13.7358686288035,-1.29933718765776,-2.14313189850787E-15));
#357=CARTESIAN_POINT('',(-21.2641313711965,-2.29933718765776,0.));
#358=CARTESIAN_POINT('Origin',(-3.7641313711965,-2.29933718765776,0.));
#359=CARTESIAN_POINT('Origin',(-3.7641313711965,-2.29933718765776,0.));
#360=CARTESIAN_POINT('Origin',(-2.7641313711965,39.8729494038653,0.));
#361=CARTESIAN_POINT('',(-2.7641313711965,2.64975619881239,-10.4871177087032));
#362=CARTESIAN_POINT('',(-2.7641313711965,2.64975619881239,10.4871177087032));
#363=CARTESIAN_POINT('Origin',(-2.7641313711965,-97.7993371876578,0.));
#364=CARTESIAN_POINT('Origin',(-2.7641313711965,39.8729494038652,0.));
#365=CARTESIAN_POINT('Origin',(-4.7641313711965,39.8729494038653,0.));
#366=CARTESIAN_POINT('',(-4.7641313711965,2.64975619881239,10.4871177087032));
#367=CARTESIAN_POINT('',(-4.7641313711965,2.64975619881239,-10.4871177087032));
#368=CARTESIAN_POINT('Origin',(-4.7641313711965,-97.7993371876578,0.));
#369=CARTESIAN_POINT('Origin',(-4.7641313711965,39.8729494038652,0.));
#370=CARTESIAN_POINT('Origin',(-3.7641313711965,39.8729494038652,0.));
#371=CARTESIAN_POINT('Ctrl Pts',(-4.7641313711965,2.6497561988124,-10.4871177087033));
#372=CARTESIAN_POINT('Ctrl Pts',(-4.42578970095858,2.65221378616432,-10.4958407202456));
#373=CARTESIAN_POINT('Ctrl Pts',(-4.09202985529854,2.65338801181106,-10.5));
#374=CARTESIAN_POINT('Ctrl Pts',(-3.43623288709443,2.65338801181106,-10.5));
#375=CARTESIAN_POINT('Ctrl Pts',(-3.10247304143441,2.65221378616432,-10.4958407202456));
#376=CARTESIAN_POINT('Ctrl Pts',(-2.7641313711965,2.6497561988124,-10.4871177087033));
#377=CARTESIAN_POINT('Ctrl Pts',(-2.7641313711965,2.6497561988124,10.4871177087033));
#378=CARTESIAN_POINT('Ctrl Pts',(-3.10247304143441,2.65221378616432,10.4958407202456));
#379=CARTESIAN_POINT('Ctrl Pts',(-3.43623288709443,2.65338801181106,10.5));
#380=CARTESIAN_POINT('Ctrl Pts',(-4.09202985529854,2.65338801181106,10.5));
#381=CARTESIAN_POINT('Ctrl Pts',(-4.42578970095858,2.65221378616432,10.4958407202456));
#382=CARTESIAN_POINT('Ctrl Pts',(-4.7641313711965,2.6497561988124,10.4871177087033));
#383=CARTESIAN_POINT('Origin',(-3.7641313711965,-8.54933718765776,0.));
#384=CARTESIAN_POINT('',(-20.2641313711965,-8.79933718765777,-2.02066721859313E-15));
#385=CARTESIAN_POINT('Origin',(-3.7641313711965,-8.79933718765777,0.));
#386=CARTESIAN_POINT('',(-20.0141313711965,-8.54933718765776,-1.99005104861445E-15));
#387=CARTESIAN_POINT('Origin',(-22.2641313711965,-8.79933718765777,0.));
#388=CARTESIAN_POINT('',(-21.2641313711965,-8.79933718765777,2.14313189850787E-15));
#389=CARTESIAN_POINT('Origin',(-3.7641313711965,-8.79933718765777,0.));
#390=CARTESIAN_POINT('Origin',(-3.7641313711965,-8.29933718765776,0.));
#391=CARTESIAN_POINT('',(-22.2641313711965,-7.79933718765776,-2.2655965784226E-15));
#392=CARTESIAN_POINT('',(14.7358686288035,-7.79933718765776,-2.2655965784226E-15));
#393=CARTESIAN_POINT('Origin',(-3.7641313711965,-7.79933718765776,0.));
#394=CARTESIAN_POINT('Origin',(-3.7641313711965,-7.79933718765776,0.));
#395=CARTESIAN_POINT('',(-21.7641313711965,-8.29933718765776,2.20436423846524E-15));
#396=CARTESIAN_POINT('Origin',(-3.7641313711965,-5.54933718765776,0.));
#397=CARTESIAN_POINT('',(-22.2641313711965,-3.29933718765776,2.2655965784226E-15));
#398=CARTESIAN_POINT('',(14.7358686288035,-3.29933718765776,-2.2655965784226E-15));
#399=CARTESIAN_POINT('Origin',(-3.7641313711965,-3.29933718765776,0.));
#400=CARTESIAN_POINT('Origin',(-3.7641313711965,-3.29933718765776,0.));
#401=CARTESIAN_POINT('',(14.7358686288035,-5.54933718765776,-2.2655965784226E-15));
#402=CARTESIAN_POINT('Origin',(-3.7641313711965,-2.79933718765776,0.));
#403=CARTESIAN_POINT('',(-21.7641313711965,-2.79933718765776,2.20436423846524E-15));
#404=CARTESIAN_POINT('Origin',(-3.7641313711965,0.200662812342243,0.));
#405=CARTESIAN_POINT('',(16.2358686288035,1.20066281234224,-2.44929359829471E-15));
#406=CARTESIAN_POINT('Origin',(-3.7641313711965,1.20066281234224,0.));
#407=CARTESIAN_POINT('',(16.2358686288035,0.200662812342243,-2.44929359829471E-15));
#408=CARTESIAN_POINT('Origin',(-3.76413137119648,-97.7993371876578,0.));
#409=UNCERTAINTY_MEASURE_WITH_UNIT(LENGTH_MEASURE(0.01),#413,
'DISTANCE_ACCURACY_VALUE',
'Maximum model space distance between geometric entities at asserted c
onnectivities');
#410=UNCERTAINTY_MEASURE_WITH_UNIT(LENGTH_MEASURE(0.01),#413,
'DISTANCE_ACCURACY_VALUE',
'Maximum model space distance between geometric entities at asserted c
onnectivities');
#411=(
GEOMETRIC_REPRESENTATION_CONTEXT(3)
GLOBAL_UNCERTAINTY_ASSIGNED_CONTEXT((#409))
GLOBAL_UNIT_ASSIGNED_CONTEXT((#413,#415,#416))
REPRESENTATION_CONTEXT('','3D')
);
#412=(
GEOMETRIC_REPRESENTATION_CONTEXT(3)
GLOBAL_UNCERTAINTY_ASSIGNED_CONTEXT((#410))
GLOBAL_UNIT_ASSIGNED_CONTEXT((#413,#415,#416))
REPRESENTATION_CONTEXT('','3D')
);
#413=(
LENGTH_UNIT()
NAMED_UNIT(*)
SI_UNIT(.MILLI.,.METRE.)
);
#414=(
LENGTH_UNIT()
NAMED_UNIT(*)
SI_UNIT(.CENTI.,.METRE.)
);
#415=(
NAMED_UNIT(*)
PLANE_ANGLE_UNIT()
SI_UNIT($,.RADIAN.)
);
#416=(
NAMED_UNIT(*)
SI_UNIT($,.STERADIAN.)
SOLID_ANGLE_UNIT()
);
#417=SHAPE_DEFINITION_REPRESENTATION(#418,#419);
#418=PRODUCT_DEFINITION_SHAPE('',$,#421);
#419=SHAPE_REPRESENTATION('',(#231),#411);
#420=PRODUCT_DEFINITION_CONTEXT('part definition',#425,'design');
#421=PRODUCT_DEFINITION('\X2\0414043504420430043B044C\X0\3',
'\X2\0414043504420430043B044C\X0\3',#422,#420);
#422=PRODUCT_DEFINITION_FORMATION('',$,#427);
#423=PRODUCT_RELATED_PRODUCT_CATEGORY('\X2\0414043504420430043B044C\X0\3',
'\X2\0414043504420430043B044C\X0\3',(#427));
#424=APPLICATION_PROTOCOL_DEFINITION('international standard',
'automotive_design',2009,#425);
#425=APPLICATION_CONTEXT(
'Core Data for Automotive Mechanical Design Process');
#426=PRODUCT_CONTEXT('part definition',#425,'mechanical');
#427=PRODUCT('\X2\0414043504420430043B044C\X0\3','\X2\0414043504420430043B044C\X0\3',
$,(#426));
#428=PRESENTATION_STYLE_ASSIGNMENT((#429));
#429=SURFACE_STYLE_USAGE(.BOTH.,#432);
#430=SURFACE_STYLE_RENDERING_WITH_PROPERTIES($,#436,(#431));
#431=SURFACE_STYLE_TRANSPARENT(0.);
#432=SURFACE_SIDE_STYLE('',(#433,#430));
#433=SURFACE_STYLE_FILL_AREA(#434);
#434=FILL_AREA_STYLE('',(#435));
#435=FILL_AREA_STYLE_COLOUR('',#436);
#436=COLOUR_RGB('',0.749019607843137,0.749019607843137,0.749019607843137);
ENDSEC;
END-ISO-10303-21;
